==>友情提示:收藏本站网址:方便下次访问。
当前位置: 主页 > 吉他教程 > 吉他入门 >

电吉他教学:左手点弦琶音训练的练习

时间:2013-07-22 20:20来源:未知 点击:

是我自己研究的一套练习。其实不算研究,只是罗列了左手单手琶音的几种可能的方式整理出来而已,见笑了

为什么要练左手的单手琶音呢个人的练习结果就是

1 锻炼左手手指独立性
2 对小指的力量练习很有帮助
3 相对于扫拨,更有助于熟悉指板上的音型
4 其实如果熟练后,就会发现这样发出的声音更有颗粒感
5 确实很酷

ok 不啰嗦
首先说一下再做这套练习时并不只用左手右手用来护弦

不是在桥处,而是反过来,在琴头处(一把抓就好了),呵呵姿势也很酷哦

开始吧
首先来看一个最简单的

大三

4    1   2    1  2     1    4   1   2    1     2    1

12---9-----------------9----12--9-------------------9---
--------10-------10----------------10---------10---------
-------------9---------------------------9-----------
-------------------------------------------------
--------------------------------------------------
--------------------------------------------------

很简单吧。上面写的是左手手指。第一个音用小指击出来,然后是拉,后面都是独立的点弦,注意右手的护弦,速度要均匀

ok 那么究竟左手点弦琶音与扫拨有何不同呢
我们来看下一个谱

--10---7------------------7----10----7-----------------7------
------------7--------7-------------------7--------7-------
-----------------7---------------------------7----------
------------------------------------------------------
------------------------------------------------------
------------------------------------------------------

这可能是大部分人练习扫拨的第一个练习,如果这个指型用左手来完成似乎就麻烦了。因为7品的音必须全用食指来完成。想做到速度均匀很难,而且食指容易疲劳

所以也就是说,想要左手单独完成点弦琶音必须找出合适的指型
以便安排手指的运动。那么下面就列出一些可能的指型

小三

-12---8--------------------8-----------------------------
----------10---------10----------------------------------
----------------9-------------------------------------
-----------------------------------------------------
-----------------------------------------------------
-----------------------------------------------------

Dim

11---8---------------------8-----------------------------
----------10---------10----------------------------------
----------------8-------------------------------------
-----------------------------------------------------
-----------------------------------------------------
-----------------------------------------------------

有点难度 四根弦了

大三

12--9--------------------------------9-------------------
--------10--------------------10-------------------------
--------------9----------9-----------------------------
-------------------11----------------------------------
-----------------------------------------------------
-----------------------------------------------------

小三
12----8----------------------------------8---------------
-----------10----------------------10--------------------
-----------------9------------9------------------------
-----------------------10------------------------------
-----------------------------------------------------
-----------------------------------------------------

减三
11---8------------------------------------8-----------
----------10------------------------10----------------
-----------------8------------8---------------------
-----------------------10---------------------------
--------------------------------------------------
--------------------------------------------------
--------------------------------------------------

准备好
5根弦了

大三

12----9-------------------------------------------12---
------------10-------------------------------10-------
-------------------9---------------------9----------
-------------------------11----------11---------------
--------------------------------12------------------
--------------------------------------------------

小三
12---8--------------------------------------8---------
---------10----------------------------10-------------
--------------9--------------------9----------------
-------------------10---------10----------------------
-------------------------12-------------------------
--------------------------------------------------

减三

11---8-------------------------------------------8----
----------10--------------------------------10--------
----------------8-----------------------8-----------
---------------------10-----------10------------------
----------------------------12----------------------
--------------------------------------------------

ok  累死了

其实这个练习不是我发明的,我只是做个总结整理。类似的练习还有留给你去研究。

想告诉大家的是:练琴的时候自己思考最重要
 

------分隔线----------------------------
网友留言